999
dxfrw 0.5.11
0
SECTION
2
HEADER
9
$ACADVER
1
AC1021
9
$HANDSEED
5
20000
9
$DWGCODEPAGE
3
ANSI_1252
9
$INSBASE
10
0
20
0
30
0
9
$EXTMIN
10
-0.6
20
-0.32
30
0
9
$EXTMAX
10
7.9
20
10.68
30
0
9
$LIMMIN
10
0
20
0
9
$LIMMAX
10
420
20
297
9
$ORTHOMODE
70
0
9
$LTSCALE
40
1
9
$TEXTSTYLE
7
STANDARD
9
$CLAYER
8
Zones
9
$DIMASZ
40
0.1
9
$DIMLFAC
40
1
9
$DIMSCALE
40
1
9
$DIMEXO
40
0.025
9
$DIMEXE
40
0.05
9
$DIMTXT
40
0.1
9
$DIMTSZ
40
0
9
$DIMAUNIT
70
0
9
$DIMADEC
70
2
9
$DIMLUNIT
70
2
9
$DIMSTYLE
2
STANDARD
9
$DIMGAP
40
0.025
9
$DIMTIH
70
0
9
$LUNITS
70
2
9
$LUPREC
70
3
9
$AUNITS
70
0
9
$AUPREC
70
2
9
$SPLINESEGS
70
8
9
$GRIDMODE
70
1
9
$SNAPSTYLE
70
0
9
$GRIDUNIT
10
0
20
0
9
$PINSBASE
10
0
20
0
30
0
9
$PLIMMIN
10
0
20
0
9
$PLIMMAX
10
11
20
8.5
9
$INSUNITS
70
1
9
$PSVPSCALE
40
1
0
ENDSEC
0
SECTION
2
CLASSES
0
ENDSEC
0
SECTION
2
TABLES
0
TABLE
2
VPORT
5
8
330
0
100
AcDbSymbolTable
70
1
0
VPORT
5
31
330
2
100
AcDbSymbolTableRecord
100
AcDbViewportTableRecord
2
*ACTIVE
70
0
10
0
20
0
11
1
21
1
12
6.32183908048
22
5.40229885059
13
0
23
0
14
10
24
10
15
10
25
10
16
0
26
0
36
1
17
0
27
0
37
0
40
11.2298850575
41
1.60081883316
42
50
43
0
44
0
50
0
51
0
71
0
72
100
73
1
74
3
75
0
76
1
77
0
78
0
281
0
65
1
110
0
120
0
130
0
111
1
121
0
131
0
112
0
122
1
132
0
79
0
146
0
348
10020
60
7
61
5
292
1
282
1
141
0
142
0
63
250
421
3358443
0
ENDTAB
0
TABLE
2
LTYPE
5
5
330
0
100
AcDbSymbolTable
70
4
0
LTYPE
5
14
330
5
100
AcDbSymbolTableRecord
100
AcDbLinetypeTableRecord
2
ByBlock
70
0
3

72
65
73
0
40
0
0
LTYPE
5
15
330
5
100
AcDbSymbolTableRecord
100
AcDbLinetypeTableRecord
2
ByLayer
70
0
3

72
65
73
0
40
0
0
LTYPE
5
16
330
5
100
AcDbSymbolTableRecord
100
AcDbLinetypeTableRecord
2
Continuous
70
0
3
Solid line
72
65
73
0
40
0
0
LTYPE
5
32
330
5
100
AcDbSymbolTableRecord
100
AcDbLinetypeTableRecord
2
DOT
70
0
3
Dot . . . . . . . . . . . . . . . . . . . . . .
72
65
73
2
40
6.35
49
0
74
0
49
-6.35
74
0
0
LTYPE
5
33
330
5
100
AcDbSymbolTableRecord
100
AcDbLinetypeTableRecord
2
DOT2
70
0
3
Dot (.5x) .....................................
72
65
73
2
40
3.175
49
0
74
0
49
-3.175
74
0
0
LTYPE
5
34
330
5
100
AcDbSymbolTableRecord
100
AcDbLinetypeTableRecord
2
DOTX2
70
0
3
Dot (2x) .  .  .  .  .  .  .  .  .  .  .  .  .
72
65
73
2
40
12.7
49
0
74
0
49
-12.7
74
0
0
LTYPE
5
35
330
5
100
AcDbSymbolTableRecord
100
AcDbLinetypeTableRecord
2
DASHED
70
0
3
Dot . . . . . . . . . . . . . . . . . . . . . .
72
65
73
2
40
19.05
49
12.7
74
0
49
-6.35
74
0
0
LTYPE
5
36
330
5
100
AcDbSymbolTableRecord
100
AcDbLinetypeTableRecord
2
DASHED2
70
0
3
Dashed (.5x) _ _ _ _ _ _ _ _ _ _ _ _ _ _ _ _ _
72
65
73
2
40
9.525
49
6.35
74
0
49
-3.175
74
0
0
LTYPE
5
37
330
5
100
AcDbSymbolTableRecord
100
AcDbLinetypeTableRecord
2
DASHEDX2
70
0
3
Dashed (2x) ____  ____  ____  ____  ____  ___
72
65
73
2
40
38.1
49
25.4
74
0
49
-12.7
74
0
0
LTYPE
5
38
330
5
100
AcDbSymbolTableRecord
100
AcDbLinetypeTableRecord
2
DASHDOT
70
0
3
Dash dot __ . __ . __ . __ . __ . __ . __ . __
72
65
73
4
40
25.4
49
12.7
74
0
49
-6.35
74
0
49
0
74
0
49
-6.35
74
0
0
LTYPE
5
39
330
5
100
AcDbSymbolTableRecord
100
AcDbLinetypeTableRecord
2
DASHDOT2
70
0
3
Dash dot (.5x) _._._._._._._._._._._._._._._.
72
65
73
4
40
12.7
49
6.35
74
0
49
-3.175
74
0
49
0
74
0
49
-3.175
74
0
0
LTYPE
5
3A
330
5
100
AcDbSymbolTableRecord
100
AcDbLinetypeTableRecord
2
DASHDOTX2
70
0
3
Dash dot (2x) ____  .  ____  .  ____  .  ___
72
65
73
4
40
50.8
49
25.4
74
0
49
-12.7
74
0
49
0
74
0
49
-12.7
74
0
0
LTYPE
5
3B
330
5
100
AcDbSymbolTableRecord
100
AcDbLinetypeTableRecord
2
DIVIDE
70
0
3
Divide ____ . . ____ . . ____ . . ____ . . ____
72
65
73
6
40
31.75
49
12.7
74
0
49
-6.35
74
0
49
0
74
0
49
-6.35
74
0
49
0
74
0
49
-6.35
74
0
0
LTYPE
5
3C
330
5
100
AcDbSymbolTableRecord
100
AcDbLinetypeTableRecord
2
DIVIDE2
70
0
3
Divide (.5x) __..__..__..__..__..__..__..__.._
72
65
73
6
40
15.875
49
6.35
74
0
49
-3.175
74
0
49
0
74
0
49
-3.175
74
0
49
0
74
0
49
-3.175
74
0
0
LTYPE
5
3D
330
5
100
AcDbSymbolTableRecord
100
AcDbLinetypeTableRecord
2
DIVIDEX2
70
0
3
Divide (2x) ________  .  .  ________  .  .  _
72
65
73
6
40
63.5
49
25.4
74
0
49
-12.7
74
0
49
0
74
0
49
-12.7
74
0
49
0
74
0
49
-12.7
74
0
0
LTYPE
5
3E
330
5
100
AcDbSymbolTableRecord
100
AcDbLinetypeTableRecord
2
BORDER
70
0
3
Border __ __ . __ __ . __ __ . __ __ . __ __ .
72
65
73
6
40
44.45
49
12.7
74
0
49
-6.35
74
0
49
12.7
74
0
49
-6.35
74
0
49
0
74
0
49
-6.35
74
0
0
LTYPE
5
3F
330
5
100
AcDbSymbolTableRecord
100
AcDbLinetypeTableRecord
2
BORDER2
70
0
3
Border (.5x) __.__.__.__.__.__.__.__.__.__.__.
72
65
73
6
40
22.225
49
6.35
74
0
49
-3.175
74
0
49
6.35
74
0
49
-3.175
74
0
49
0
74
0
49
-3.175
74
0
0
LTYPE
5
40
330
5
100
AcDbSymbolTableRecord
100
AcDbLinetypeTableRecord
2
BORDERX2
70
0
3
Border (2x) ____  ____  .  ____  ____  .  ___
72
65
73
6
40
88.9
49
25.4
74
0
49
-12.7
74
0
49
25.4
74
0
49
-12.7
74
0
49
0
74
0
49
-12.7
74
0
0
LTYPE
5
41
330
5
100
AcDbSymbolTableRecord
100
AcDbLinetypeTableRecord
2
CENTER
70
0
3
Center ____ _ ____ _ ____ _ ____ _ ____ _ ____
72
65
73
4
40
50.8
49
31.75
74
0
49
-6.35
74
0
49
6.35
74
0
49
-6.35
74
0
0
LTYPE
5
42
330
5
100
AcDbSymbolTableRecord
100
AcDbLinetypeTableRecord
2
CENTER2
70
0
3
Center (.5x) ___ _ ___ _ ___ _ ___ _ ___ _ ___
72
65
73
4
40
28.575
49
19.05
74
0
49
-3.175
74
0
49
3.175
74
0
49
-3.175
74
0
0
LTYPE
5
43
330
5
100
AcDbSymbolTableRecord
100
AcDbLinetypeTableRecord
2
CENTERX2
70
0
3
Center (2x) ________  __  ________  __  _____
72
65
73
4
40
101.6
49
63.5
74
0
49
-12.7
74
0
49
12.7
74
0
49
-12.7
74
0
0
ENDTAB
0
TABLE
2
LAYER
5
2
330
0
100
AcDbSymbolTable
70
1
0
LAYER
5
10
330
2
100
AcDbSymbolTableRecord
100
AcDbLayerTableRecord
2
0
70
0
62
7
6
CONTINUOUS
370
0
390
F
0
LAYER
5
44
330
2
100
AcDbSymbolTableRecord
100
AcDbLayerTableRecord
2
ASME A Sheet
70
0
62
7
6
CONTINUOUS
370
0
390
F
0
LAYER
5
45
330
2
100
AcDbSymbolTableRecord
100
AcDbLayerTableRecord
2
Dim./Proj. BLock
70
0
62
7
6
CONTINUOUS
370
30
390
F
0
LAYER
5
46
330
2
100
AcDbSymbolTableRecord
100
AcDbLayerTableRecord
2
Revision Block
70
0
62
7
6
CONTINUOUS
370
30
390
F
0
LAYER
5
47
330
2
100
AcDbSymbolTableRecord
100
AcDbLayerTableRecord
2
Title Block
70
0
62
7
6
CONTINUOUS
370
30
390
F
0
LAYER
5
48
330
2
100
AcDbSymbolTableRecord
100
AcDbLayerTableRecord
2
Zones
70
0
62
7
6
CONTINUOUS
370
30
390
F
0
LAYER
5
49
330
2
100
AcDbSymbolTableRecord
100
AcDbLayerTableRecord
2
crt4 Frame
70
0
62
7
6
CONTINUOUS
370
60
390
F
0
ENDTAB
0
TABLE
2
STYLE
5
3
330
0
100
AcDbSymbolTable
70
3
0
STYLE
5
4A
330
2
100
AcDbSymbolTableRecord
100
AcDbTextStyleTableRecord
2
standard
70
0
40
0
41
1
50
0
71
0
42
1
3
standard
4

0
ENDTAB
0
TABLE
2
VIEW
5
6
330
0
100
AcDbSymbolTable
70
0
0
ENDTAB
0
TABLE
2
UCS
5
7
330
0
100
AcDbSymbolTable
70
0
0
ENDTAB
0
TABLE
2
APPID
5
9
330
0
100
AcDbSymbolTable
70
1
0
APPID
5
12
330
9
100
AcDbSymbolTableRecord
100
AcDbRegAppTableRecord
2
ACAD
70
0
0
ENDTAB
0
TABLE
2
DIMSTYLE
5
A
330
0
100
AcDbSymbolTable
70
1
100
AcDbDimStyleTable
71
1
0
DIMSTYLE
105
4B
330
A
100
AcDbSymbolTableRecord
100
AcDbDimStyleTableRecord
2
Standard
70
0
40
1
41
0.1
42
0.025
43
0.38
44
0.05
45
0
46
0
47
0
48
0
140
0.1
141
0.09
142
0
143
25.4
144
1
145
0
146
1
147
0.025
148
0
71
0
72
0
73
0
74
1
75
0
76
0
77
0
78
0
79
0
170
0
171
2
172
0
173
0
174
0
175
0
176
0
177
0
178
0
179
0
271
4
272
4
273
2
274
2
275
0
276
0
277
2
278
46
279
0
280
0
281
0
282
0
283
1
284
0
285
0
286
0
288
0
289
3
340
Standard
341

371
-2
372
-2
0
ENDTAB
0
TABLE
2
BLOCK_RECORD
5
1
330
0
100
AcDbSymbolTable
70
2
0
BLOCK_RECORD
5
1F
330
1
100
AcDbSymbolTableRecord
100
AcDbBlockTableRecord
2
*Model_Space
70
0
280
1
281
0
0
BLOCK_RECORD
5
1E
330
1
100
AcDbSymbolTableRecord
100
AcDbBlockTableRecord
2
*Paper_Space
70
0
280
1
281
0
0
ENDTAB
0
ENDSEC
0
SECTION
2
BLOCKS
0
BLOCK
5
20
330
1F
100
AcDbEntity
8
0
100
AcDbBlockBegin
2
*Model_Space
70
0
10
0
20
0
30
0
3
*Model_Space
1

0
ENDBLK
5
21
330
1F
100
AcDbEntity
8
0
100
AcDbBlockEnd
0
BLOCK
5
1C
330
1B
100
AcDbEntity
8
0
100
AcDbBlockBegin
2
*Paper_Space
70
0
10
0
20
0
30
0
3
*Paper_Space
1

0
ENDBLK
5
1D
330
1F
100
AcDbEntity
8
0
100
AcDbBlockEnd
0
ENDSEC
0
SECTION
2
ENTITIES
0
LINE
5
4C
100
AcDbEntity
8
crt4 Frame
6
ByLayer
62
256
370
-1
100
AcDbLine
10
7.118
20
0.012
11
0.012
21
0.012
0
LINE
5
4D
100
AcDbEntity
8
crt4 Frame
6
ByLayer
62
256
370
-1
100
AcDbLine
10
7.118
20
0.012
11
7.118
21
10.068
0
LINE
5
4E
100
AcDbEntity
8
crt4 Frame
6
ByLayer
62
256
370
-1
100
AcDbLine
10
0.012
20
0.012
11
0.012
21
10.068
0
LINE
5
4F
100
AcDbEntity
8
crt4 Frame
6
ByLayer
62
256
370
-1
100
AcDbLine
10
0.012
20
10.068
11
7.118
21
10.068
0
LINE
5
50
100
AcDbEntity
8
Zones
6
ByLayer
62
256
370
-1
100
AcDbLine
10
7.89213
20
4.9
11
7.11425
21
4.9
0
LINE
5
51
100
AcDbEntity
8
Dim./Proj. BLock
6
ByLayer
62
256
370
30
100
AcDbLine
10
2.75
20
0.9
11
2.75
21
0.28425
0
LINE
5
52
100
AcDbEntity
8
Dim./Proj. BLock
6
ByLayer
62
256
370
30
100
AcDbLine
10
1.05
20
0.28425
11
4.04
21
0.28425
0
LINE
5
53
100
AcDbEntity
8
Dim./Proj. BLock
6
ByLayer
62
256
370
30
100
AcDbLine
10
3.05
20
0.63425
11
3.05
21
0.83425
0
LINE
5
54
100
AcDbEntity
8
Dim./Proj. BLock
6
ByLayer
62
256
370
30
100
AcDbLine
10
3.73
20
0.58425
11
3.77
21
0.58425
0
LINE
5
55
100
AcDbEntity
8
Dim./Proj. BLock
6
ByLayer
62
256
370
30
100
AcDbLine
10
3.8
20
0.58425
11
4
21
0.58425
0
LINE
5
56
100
AcDbEntity
8
Dim./Proj. BLock
6
ByLayer
62
256
370
30
100
AcDbLine
10
3.7
20
0.58425
11
3.5
21
0.58425
0
LINE
5
57
100
AcDbEntity
8
Dim./Proj. BLock
6
ByLayer
62
256
370
30
100
AcDbLine
10
3.03
20
0.58425
11
3.07
21
0.58425
0
LINE
5
58
100
AcDbEntity
8
Dim./Proj. BLock
6
ByLayer
62
256
370
30
100
AcDbLine
10
3.1
20
0.58425
11
3.3
21
0.58425
0
LINE
5
59
100
AcDbEntity
8
Dim./Proj. BLock
6
ByLayer
62
256
370
30
100
AcDbLine
10
3
20
0.58425
11
2.8
21
0.58425
0
LINE
5
5A
100
AcDbEntity
8
Dim./Proj. BLock
6
ByLayer
62
256
370
30
100
AcDbLine
10
3.05
20
0.56425
11
3.05
21
0.60425
0
LINE
5
5B
100
AcDbEntity
8
Dim./Proj. BLock
6
ByLayer
62
256
370
30
100
AcDbLine
10
3.05
20
0.53425
11
3.05
21
0.33425
0
CIRCLE
5
5C
100
AcDbEntity
8
Dim./Proj. BLock
6
ByLayer
62
256
370
60
100
AcDbCircle
10
3.05
20
0.58425
40
0.2
0
CIRCLE
5
5D
100
AcDbEntity
8
Dim./Proj. BLock
6
ByLayer
62
256
370
60
100
AcDbCircle
10
3.05
20
0.58425
40
0.09282
0
LINE
5
5E
100
AcDbEntity
8
Dim./Proj. BLock
6
ByLayer
62
256
370
60
100
AcDbLine
10
3.95
20
0.78425
11
3.55
21
0.677070323028
0
LINE
5
5F
100
AcDbEntity
8
Dim./Proj. BLock
6
ByLayer
62
256
370
60
100
AcDbLine
10
3.55
20
0.491429676972
11
3.95
21
0.38425
0
LINE
5
60
100
AcDbEntity
8
Dim./Proj. BLock
6
ByLayer
62
256
370
60
100
AcDbLine
10
3.55
20
0.677070323028
11
3.55
21
0.491429676972
0
MTEXT
5
61
100
AcDbEntity
8
Dim./Proj. BLock
6
ByLayer
62
256
370
30
100
AcDbMText
10
1.15
20
0.63425
30
0
40
0.125
41
1.55208330683
71
1
72
1
1
ASME Y14.5M-1994
7
standard
210
0
220
0
230
1
50
0
73
2
44
1
0
LINE
5
62
100
AcDbEntity
8
Dim./Proj. BLock
6
ByLayer
62
256
370
30
100
AcDbLine
10
2.75
20
0.9
11
4.05
21
0.9
0
LINE
5
63
100
AcDbEntity
8
Dim./Proj. BLock
6
ByLayer
62
256
370
30
100
AcDbLine
10
1.05
20
0.9
11
2.75
21
0.9
0
MTEXT
5
64
100
AcDbEntity
8
Dim./Proj. BLock
6
ByLayer
62
256
370
30
100
AcDbMText
10
1.15
20
1.3
30
0
40
0.12
41
2.47999989824
71
1
72
1
1
UNLESS OTHERWISE SPECIFIED,
7
standard
210
0
220
0
230
1
50
0
73
2
44
1
0
MTEXT
5
65
100
AcDbEntity
8
Dim./Proj. BLock
6
ByLayer
62
256
370
30
100
AcDbMText
10
1.15
20
1.1
30
0
40
0.12
41
2.57333325701
71
1
72
1
1
ALL DIMENSIONS ARE IN INCHES
7
standard
210
0
220
0
230
1
50
0
73
2
44
1
0
LINE
5
66
100
AcDbEntity
8
Dim./Proj. BLock
6
ByLayer
62
256
370
60
100
AcDbLine
10
1.05
20
1.4
11
1.05
21
0.02
0
MTEXT
5
67
100
AcDbEntity
8
Dim./Proj. BLock
6
ByLayer
62
256
370
30
100
AcDbMText
10
1.15
20
0.83425
30
0
40
0.12
41
0.85
71
1
72
1
1
DRAWN TO
7
standard
210
0
220
0
230
1
50
0
73
2
44
1
0
MTEXT
5
68
100
AcDbEntity
8
Dim./Proj. BLock
6
ByLayer
62
256
370
30
100
AcDbMText
10
1.18
20
0.21
30
0
40
0.12
41
2.80666662789
71
1
72
1
1
© YYYY (BY) CC By-SA 4.0 INT'L
7
standard
210
0
220
0
230
1
50
0
73
2
44
1
0
LINE
5
69
100
AcDbEntity
8
Title Block
6
ByLayer
62
256
370
60
100
AcDbLine
10
4.05
20
2.7
11
7.11425
21
2.7
0
LINE
5
6A
100
AcDbEntity
8
Title Block
6
ByLayer
62
256
370
30
100
AcDbLine
10
4.05
20
1.46575
11
7.11425
21
1.46575
0
LINE
5
6B
100
AcDbEntity
8
Title Block
6
ByLayer
62
256
370
30
100
AcDbLine
10
4.05
20
2.2
11
7.11425
21
2.2
0
LINE
5
6C
100
AcDbEntity
8
Title Block
6
ByLayer
62
256
370
60
100
AcDbLine
10
4.05
20
0.012
11
4.05
21
2.7
0
LINE
5
6D
100
AcDbEntity
8
Title Block
6
ByLayer
62
256
370
-1
100
AcDbLine
10
4.05
20
1
11
7.118
21
1
0
LINE
5
6E
100
AcDbEntity
8
Title Block
6
ByLayer
62
256
370
30
100
AcDbLine
10
4.05
20
0.49075
11
7.11425
21
0.49075
0
LINE
5
6F
100
AcDbEntity
8
Title Block
6
ByLayer
62
256
370
-1
100
AcDbLine
10
6.15
20
0.5
11
6.15
21
1
0
LINE
5
70
100
AcDbEntity
8
Title Block
6
ByLayer
62
256
370
-1
100
AcDbLine
10
4.85
20
0.012
11
4.85
21
0.49075
0
MTEXT
5
71
100
AcDbEntity
8
Title Block
6
ByLayer
62
256
370
-1
100
AcDbMText
10
4.19
20
0.23
30
0
40
0.12
41
0.543333307893
71
1
72
1
1
ANSI A
7
standard
210
0
220
0
230
1
50
0
73
2
44
1
0
MTEXT
5
72
100
AcDbEntity
8
Title Block
6
ByLayer
62
256
370
30
100
AcDbMText
10
4.15
20
1.42
30
0
40
0.1
41
0.544444444444
71
1
72
1
1
PROJECT
7
standard
210
0
220
0
230
1
50
0
73
2
44
1
0
MTEXT
5
73
100
AcDbEntity
8
Title Block
6
ByLayer
62
256
370
30
100
AcDbMText
10
4.56
20
1.24
30
0
40
0.12
41
1.95666666667
71
1
72
1
1
PROJECT/MACHINE NAME
7
standard
210
0
220
0
230
1
50
0
73
2
44
1
0
MTEXT
5
74
100
AcDbEntity
8
Title Block
6
ByLayer
62
256
370
30
100
AcDbMText
10
4.15
20
0.95
30
0
40
0.1
41
0.619444444444
71
1
72
1
1
PART NO.
7
standard
210
0
220
0
230
1
50
0
73
2
44
1
0
MTEXT
5
75
100
AcDbEntity
8
Title Block
6
ByLayer
62
256
370
30
100
AcDbMText
10
4.35
20
0.75
30
0
40
0.12
41
1.32999994912
71
1
72
1
1
PART/ASSY. NO.
7
standard
210
0
220
0
230
1
50
0
73
2
44
1
0
MTEXT
5
76
100
AcDbEntity
8
Title Block
6
ByLayer
62
256
370
30
100
AcDbMText
10
6.25
20
0.95
30
0
40
0.1
41
0.719444444444
71
1
72
1
1
DRAWN BY
7
standard
210
0
220
0
230
1
50
0
73
2
44
1
0
MTEXT
5
77
100
AcDbEntity
8
Title Block
6
ByLayer
62
256
370
30
100
AcDbMText
10
4.9
20
0.46
30
0
40
0.1
41
0.388888867689
71
1
72
1
1
SCALE
7
standard
210
0
220
0
230
1
50
0
73
2
44
1
0
MTEXT
5
78
100
AcDbEntity
8
Title Block
6
ByLayer
62
256
370
30
100
AcDbMText
10
4.28
20
2.65
30
0
40
0.1875
41
2.59895833333
71
1
72
1
1
ORGANIZATION NAME
7
standard
210
0
220
0
230
1
50
0
73
2
44
1
0
MTEXT
5
79
100
AcDbEntity
8
Title Block
6
ByLayer
62
256
370
30
100
AcDbMText
10
4.78
20
2.4
30
0
40
0.12
41
1.61
71
1
72
1
1
OPTIONAL LOCATION
7
standard
210
0
220
0
230
1
50
0
73
2
44
1
0
MTEXT
5
7A
100
AcDbEntity
8
Title Block
6
ByLayer
62
256
370
30
100
AcDbMText
10
4.45
20
1.7
30
0
40
0.12
41
2.12666664123
71
1
72
1
1
OPTIONAL PART SUBNAME
7
standard
210
0
220
0
230
1
50
0
73
2
44
1
0
MTEXT
5
7B
100
AcDbEntity
8
Title Block
6
ByLayer
62
256
370
30
100
AcDbMText
10
4.15
20
2.1
30
0
40
0.24
41
2.84
71
1
72
1
1
PART NAME HERE
7
standard
210
0
220
0
230
1
50
0
73
2
44
1
0
MTEXT
5
7C
100
AcDbEntity
8
Title Block
6
ByLayer
62
256
370
30
100
AcDbMText
10
6.25
20
0.75
30
0
40
0.12
41
0.719999947893
71
1
72
1
1
(INITIALS)
7
standard
210
0
220
0
230
1
50
0
73
2
44
1
0
MTEXT
5
7D
100
AcDbEntity
8
Title Block
6
ByLayer
62
256
370
-1
100
AcDbMText
10
4.12
20
0.43
30
0
40
0.12
41
0.676666666667
71
1
72
1
1
CRT4 ON
7
standard
210
0
220
0
230
1
50
0
73
2
44
1
0
LINE
5
7E
100
AcDbEntity
8
Dim./Proj. BLock
6
ByLayer
62
256
370
60
100
AcDbLine
10
1.05
20
1.4
11
4.05
21
1.4
0
LINE
5
7F
100
AcDbEntity
8
Dim./Proj. BLock
6
ByLayer
62
256
370
60
100
AcDbLine
10
3.95
20
0.78425
11
3.95
21
0.38425
0
LINE
5
80
100
AcDbEntity
8
Dim./Proj. BLock
6
ByLayer
62
256
370
60
100
AcDbLine
10
4.05
20
1.4
11
4.05
21
0.012
0
MTEXT
5
81
100
AcDbEntity
8
Title Block
6
ByLayer
62
256
370
-1
100
AcDbMText
10
5.06
20
0.27
30
0
40
0.12
41
0.133333333333
71
1
72
1
1
1:1
7
standard
210
0
220
0
230
1
50
0
73
2
44
1
0
LINE
5
82
100
AcDbEntity
8
Revision Block
6
ByLayer
62
256
370
40
100
AcDbLine
10
6.61
20
9.85
11
6.61
21
10.06
0
MTEXT
5
83
100
AcDbEntity
8
Revision Block
6
ByLayer
62
256
370
30
100
AcDbMText
10
5.39
20
10.01
30
0
40
0.12
41
1.08
71
1
72
1
1
YYYY-MM-DD
7
standard
210
0
220
0
230
1
50
0
73
2
44
1
0
LINE
5
84
100
AcDbEntity
8
Revision Block
6
ByLayer
62
256
370
40
100
AcDbLine
10
4.57
20
9.85
11
4.57
21
10.068
0
LINE
5
85
100
AcDbEntity
8
Revision Block
6
ByLayer
62
256
370
40
100
AcDbLine
10
5.3
20
9.85
11
5.3
21
10.06
0
LINE
5
86
100
AcDbEntity
8
Revision Block
6
ByLayer
62
256
370
40
100
AcDbLine
10
4.57
20
9.85
11
7.11425
21
9.85
0
MTEXT
5
87
100
AcDbEntity
8
Revision Block
6
ByLayer
62
256
370
30
100
AcDbMText
10
6.66
20
10.01
30
0
40
0.12
41
0.293333306667
71
1
72
1
1
(BY)
7
standard
210
0
220
0
230
1
50
0
73
2
44
1
0
MTEXT
5
88
100
AcDbEntity
8
Revision Block
6
ByLayer
62
256
370
30
100
AcDbMText
10
4.62
20
10.01
30
0
40
0.12
41
0.62
71
1
72
1
1
REV.  A
7
standard
210
0
220
0
230
1
50
0
73
2
44
1
0
LINE
5
89
100
AcDbEntity
8
ASME A Sheet
6
ByLayer
62
256
370
-1
100
AcDbLine
10
-0.6
20
-0.32
11
-0.6
21
10.68
0
LINE
5
8A
100
AcDbEntity
8
ASME A Sheet
6
ByLayer
62
256
370
-1
100
AcDbLine
10
7.9
20
-0.32
11
7.9
21
10.68
0
LINE
5
8B
100
AcDbEntity
8
ASME A Sheet
6
ByLayer
62
256
370
-1
100
AcDbLine
10
7.9
20
10.68
11
-0.6
21
10.68
0
LINE
5
8C
100
AcDbEntity
8
ASME A Sheet
6
ByLayer
62
256
370
-1
100
AcDbLine
10
7.9
20
-0.32
11
-0.6
21
-0.32
0
CIRCLE
5
8D
100
AcDbEntity
8
0
6
ByLayer
62
256
370
-1
100
AcDbCircle
10
2.275
20
10.27375
40
0.140625
0
CIRCLE
5
8E
100
AcDbEntity
8
0
6
ByLayer
62
256
370
-1
100
AcDbCircle
10
5.025
20
10.27375
40
0.140625
0
LINE
5
8F
100
AcDbEntity
8
Zones
6
ByLayer
62
256
370
-1
100
AcDbLine
10
3.65
20
-0.314094
11
3.65
21
0.01575
0
LINE
5
90
100
AcDbEntity
8
Zones
6
ByLayer
62
256
370
-1
100
AcDbLine
10
3.65
20
10.0642
11
3.65
21
10.674094
0
CIRCLE
5
91
100
AcDbEntity
8
0
6
ByLayer
62
256
370
-1
100
AcDbCircle
10
-0.19375
20
0.93
40
0.140625
0
CIRCLE
5
92
100
AcDbEntity
8
0
6
ByLayer
62
256
370
-1
100
AcDbCircle
10
-0.19375
20
5.18
40
0.140625
0
LINE
5
93
100
AcDbEntity
8
Zones
6
ByLayer
62
256
370
-1
100
AcDbLine
10
0.01575
20
5.18
11
-0.59213
21
5.18
0
CIRCLE
5
94
100
AcDbEntity
8
0
6
ByLayer
62
256
370
-1
100
AcDbCircle
10
-0.19375
20
9.43
40
0.140625
0
MTEXT
5
95
100
AcDbEntity
8
crt4 Frame
6
ByLayer
62
256
370
5
100
AcDbMText
10
7.53
20
-1.00440489259e-15
30
0
40
0.075
41
4.36458334767
71
1
72
1
1
FORM: crt4-frame-on-ansi-a-portrait-01-complete-inch.dxf (FORM IS PUBLIC DOMAIN)
7
standard
210
0
220
0
230
1
50
90
73
2
44
1
0
MTEXT
5
96
100
AcDbEntity
8
Zones
6
ByLayer
62
256
370
-1
100
AcDbMText
10
-0.27
20
7.6
30
0
40
0.24
41
0.106666666667
71
1
72
1
1
2
7
standard
210
0
220
0
230
1
50
0
73
2
44
1
0
MTEXT
5
97
100
AcDbEntity
8
Zones
6
ByLayer
62
256
370
-1
100
AcDbMText
10
-0.27
20
2.2
30
0
40
0.24
41
0.0533333333333
71
1
72
1
1
1
7
standard
210
0
220
0
230
1
50
0
73
2
44
1
0
MTEXT
5
98
100
AcDbEntity
8
Zones
6
ByLayer
62
256
370
-1
100
AcDbMText
10
7.28
20
2.2
30
0
40
0.24
41
0.0533333333333
71
1
72
1
1
1
7
standard
210
0
220
0
230
1
50
0
73
2
44
1
0
MTEXT
5
99
100
AcDbEntity
8
Zones
6
ByLayer
62
256
370
-1
100
AcDbMText
10
7.3
20
7.6
30
0
40
0.24
41
0.106666666667
71
1
72
1
1
2
7
standard
210
0
220
0
230
1
50
0
73
2
44
1
0
MTEXT
5
9A
100
AcDbEntity
8
Zones
6
ByLayer
62
256
370
-1
100
AcDbMText
10
1.7
20
10.4
30
0
40
0.24
41
0.133333333333
71
1
72
1
1
B
7
standard
210
0
220
0
230
1
50
0
73
2
44
1
0
MTEXT
5
9B
100
AcDbEntity
8
Zones
6
ByLayer
62
256
370
-1
100
AcDbMText
10
5.4
20
10.41
30
0
40
0.24
41
0.16
71
1
72
1
1
A
7
standard
210
0
220
0
230
1
50
0
73
2
44
1
0
LINE
5
9C
100
AcDbEntity
8
Title Block
6
ByLayer
62
256
370
30
100
AcDbLine
10
5.45
20
-9.90527104783e-16
11
5.45
21
0.47875
0
MTEXT
5
9D
100
AcDbEntity
8
Title Block
6
ByLayer
62
256
370
30
100
AcDbMText
10
5.5
20
0.46
30
0
40
0.1
41
0.863888888889
71
1
72
1
1
DRAWING NO.
7
standard
210
0
220
0
230
1
50
0
73
2
44
1
0
MTEXT
5
9E
100
AcDbEntity
8
Title Block
6
ByLayer
62
256
370
30
100
AcDbMText
10
5.55
20
0.3
30
0
40
0.24
41
1.49333333333
71
1
72
1
1
NN-####
7
standard
210
0
220
0
230
1
50
0
73
2
44
1
0
ENDSEC
0
SECTION
2
OBJECTS
0
DICTIONARY
5
C
330
0
100
AcDbDictionary
281
1
3
ACAD_GROUP
350
D
0
DICTIONARY
5
D
330
C
100
AcDbDictionary
281
1
0
ENDSEC
0
EOF
